navajita platea (noches de bohemia)

Ver el tema anterior Ver el tema siguiente Ir abajo

navajita platea (noches de bohemia)

Mensaje  Gabriel el Dom Jul 27, 2008 2:57 pm

hola!! aqui os dejo una partitura nueva "NAVAJITA PLATEA" (espero q os guste) Very Happy

NAVAJITA PLATEA (Noches de Bohemia)
Acordes:
Re: 000232
Fa#m: 244222
Sol: 320003
La7: 002020
Fa#: 244322
Sim: 224432
Sol7: 353433
Fa#7: 242322
La: 002220

INTRO: 2 veces

(Re) (Fa#m) (Sol) (Sim) <--- 2ª guitarra
* * * * *
e |----2-----------5-3-2--------- |---------3-2-0---------- |------------------------
B |----3-----3--5---------5--3--- |2~~~-2-3-----3-2------ |0---0-2h3p2-0----------
G |----2------------------------- |------------------------ |0---------------3-0-----
D |------------------------------ |------------------------ |-------------------4-2-0-
A |------------------------------ |------------------------ |-------------------------
E |------------------------------ |2----------------------- |3------------------------

Re Fa#m
Noches de bohemia y de ilusion
Sol
yo no me doy a la razón
La7 Re
tú como te olvidaste de eso
Re Fa#m
Busco y no encuentro una explicación
Sol
solo la desilusión
La7 Re Fa# Sim
de qué falsos fueron tus besos


Sim La Sim
Yo ya no sé cómo olvidarte, e-e-e-e-eeeh
La
como arrancarte de mis adentros
Fa# Sol7
desde que te marchaste
Fa#7
mi vida es un tormento


Sim La Sim
Yo ya no quiero recordarte, e e e e eeeh
La
ni siquiera ni un momento
Fa# Sol7
pero llevo tu imagen
Fa#7
graba en mi pensamiento


Re Fa#m
Noches de bohemia y de ilusión
Sol
yo no me doy a la razón
La7 Re
tu como te olvidaste de eso

Intro: 1 vez

Sim La Sim
Yo quiero vivir distante, e e e e eeeh
La
de todo aquello que era nuestro
Fa# Sol7
pero el aire me trae
Fa#7
aromas de recuerdo


Sim La Sim
No me pidas que me calle, e e e e eeeh
La
tu no sabes lo que siento
Fa# Sol7
me has hecho una herida
Fa#7
en mi sentimiento


Re Fa#m
Noches de bohemia y de ilusión
Sol
yo no me doy a la razón
La7 Re
tu como te olvidaste de eso
Re Fa#m
Busco y no encuentro una explicación
Sol
solo la desilusión
La7 Re Fa# Sim
de que falsos fueron tus besos

Punteo:


* * * * * *
e |---------------------0----- |------------------ |-2--3--5~-3-2------------------
B |------5-3~~~-3-3h2p0---3- |--3-3h2p0---0h2--- |-3------------5-3h2-3-5—0h2p0-
G |-(2h4)---------------------- |------------------ |-2------------------------------
D |---------------------------- |------------------ |-0------------------------------
A |---------------------------- |------------------ |--------------------------------
E |---------------------------- |------------------ |-------------------------------


e |---------------------------- |----------------- |----------------------- -------
B |---------------------------- |----------------- |-----------------------------
G |-2~~~--------------------- |----------------- |-----------------------------
D |---------------------------- |-5p4~--2-0------ |-(4h5-2h3h4---4-4h5-2h3-4~~)
A |---------------------------- |---------4-2-2-0- |-------------------------------
E |---------------------------- |-----------3-2~~ |------------------------------


~~~GABRIEL~~~

Gabriel

Mensajes : 6
Fecha de inscripción : 27/07/2008

Ver perfil de usuario

Volver arriba Ir abajo

Ver el tema anterior Ver el tema siguiente Volver arriba

- Temas similares

 
Permisos de este foro:
No puedes responder a temas en este foro.