Bendita tu luz - Maná

Ver el tema anterior Ver el tema siguiente Ir abajo

Bendita tu luz - Maná

Mensaje  Vicente el Dom Jul 27, 2008 2:09 pm

Bendita tu luz - Maná


INTRO

e-----------|-----------|-------------|---------------------|
B------3----|------3----|------3------|----------1----------|
G--------0--|--------2--|-------0-----|-----0------0--------|
D----0------|----0------|----4--------|----2---4-4-0--------|
A-----------|-----------|---2---------|--3----5-------------|
E--3--------|--2--------|-------------|---------------------|


e-----------|-----------|-------------|----------------------|
B------3----|------3----|------3------|-----------1---------|
G--------0--|--------2--|----0--------|-----0-------0-------|
D----0------|----0------|---4---------|---2-----4-4-0------|
A-----------|-----------|--2----------|--3-----5------------|
E--3--------|--2--------|-------------|---------------------|


----------D---Em
Bendito el lugar
------C---------D---G
y el motivo de estar ahi
----D---------Em----C-D
bendita la coincidencia
G---------D--Em
bendito el reloj
---------C------D---G
que nos puso puntual ahi
----D---------Em----C-D
bendita sea tu presencia



Em------D---------C
bendito Dios por encontrarnos
D-----G
en el camino
Em---------D------C
y de quitarme esta soledad
--------D
de mi destino


CORO
---------G-D
bendita la luz
----------Am--------C
bendita la luz de tu mirada
---------G-D

bendita la luz
---------Am---------D----------G
bendita la luz de tu mirada, desde el alma


Primer Solo Guitarra:

-G--------D---Em--------C--D------G
e-----3-----2--|--0-0-0-2-3-5-3-5-7-8-10-7v----|
B--------------|---------------------------------|
G-2/4---4/2----|--0-0-0-2-4-5-4-5-7------------|
D—------------|---------------------------------|
A--------------|---------------------------------|
E--------------|---------------------------------|

----------------D---------Em--------C---D--G
e--7-8-10-7-8-10-10/12-10v-|-----7-5-5v-7-3v-5-2--------------|
B----------------------------|-----8-7-7v-8-5v-7-3-5-8v-7-5-3--|
G----------------------------|---7------------------5-9v-7-5-4--|
D—--------------------------|-----------------------------------|
A----------------------------|-----------------------------------|
E----------------------------|-----------------------------------|


G-----------D
Benditos ojos que me esquivaban
-Am--------C------D------G
simulaban desden que me ignoraban
------------D
y derrepente sostienes la mirada
-Am------------D
durom diri durom diriiii


Em------D---------C
bendito Dios por encontrarnos
D------G
en el camino
Em---------D------C
y de quitarme esta soledad
-------D
de mi destino


---------G-D
bendita la luz
---------Am---------C
bendita la luz de tu mirada
---------G-D
bendita la luz
--------Am---------D----G
bendita la luz de tu mirada ohhh
-----------------D
gloria divina esta suerte del buen tino
F--------------------Am
de encontrarte justo ahi en medio del camino
D-----------------------G
gloria al cielo de encontrarte ahora
Em-----------D
llevarte mi soledad
-----B------------Em
y coincidir en mi destino
D------------G
en el mismo destino


---------G-D
bendita la luz
----------Am------C
bendita la luz de tu mirada
---------G-D
bendita la luz
----------Am------C
bendita la luz de tu mirada
--------G-----D
Bendita mirada oh oh
--------Am---------C
bendita mirada desde el alma
---G-D-Am
tu mirada
G------------D
bendita bendita bendita mirada
Am--------------C
bendita tu alma y bendita tu luz
----G-----D
tu mirada oh oh
----------Am------------C-------G
oh oh te digo es tan bendita tu luz amor amor
---------------D
bendito el reloj y bendito el lugar
-Am-------------C-------D
benditos tus besos cerquita del mar
-----G----D
y tu mirada
-----Am
amor amor
------------C
que bendita tu mirada
-D------G
tu mirada amor

Very Happy


Acorde Eng Acorde Spa
A La
B Si
C Do
D Re
E Mi
F Fa
G Sol
avatar
Vicente
Admin

Mensajes : 19
Fecha de inscripción : 25/07/2008

Ver perfil de usuario http://vidaenlibertad.forosactivos.net

Volver arriba Ir abajo

Re: Bendita tu luz - Maná

Mensaje  Gabriel el Dom Jul 27, 2008 2:19 pm

hola!! tongue
sta es una de las mejores partituras que hay y la mejor cancion!! spero q os guste a todos!!
saludosss!!!! Wink y a ti tambien vicente y spero q cuelgues muchas mas!! xao! lol! xdd.

Gabriel

Mensajes : 6
Fecha de inscripción : 27/07/2008

Ver perfil de usuario

Volver arriba Ir abajo

Ver el tema anterior Ver el tema siguiente Volver arriba

- Temas similares

 
Permisos de este foro:
No puedes responder a temas en este foro.